ISO-10303-21;
HEADER;
/* Generated by software containing ST-Developer
 * from STEP Tools, Inc. (www.steptools.com) 
 */
/* OPTION: using custom schema-name function */

FILE_DESCRIPTION(
/* description */ (''),
/* implementation_level */ '2;1');

FILE_NAME(
/* name */ 'TC__110204R.stp',
/* time_stamp */ '2018-04-05T16:17:41+06:00',
/* author */ (''),
/* organization */ (''),
/* preprocessor_version */ 'ST-DEVELOPER v16',
/* originating_system */ 'SIEMENS PLM Software NX 11.0',
/* authorisation */ '');

FILE_SCHEMA (('AUTOMOTIVE_DESIGN { 1 0 10303 214 3 1 1 1 }'));
ENDSEC;

DATA;
#10=CONSTRUCTIVE_GEOMETRY_REPRESENTATION_RELATIONSHIP(
'supplemental geometry','',#32,#11);
#11=CONSTRUCTIVE_GEOMETRY_REPRESENTATION('supplemental geometry',(#184,
#185),#288);
#12=PROPERTY_DEFINITION_REPRESENTATION(#16,#14);
#13=PROPERTY_DEFINITION_REPRESENTATION(#17,#15);
#14=REPRESENTATION('',(#18),#288);
#15=REPRESENTATION('',(#19),#288);
#16=PROPERTY_DEFINITION('pmi validation property','',#23);
#17=PROPERTY_DEFINITION('pmi validation property','',#23);
#18=VALUE_REPRESENTATION_ITEM('number of annotations',COUNT_MEASURE(0.));
#19=VALUE_REPRESENTATION_ITEM('number of views',COUNT_MEASURE(0.));
#20=SHAPE_REPRESENTATION_RELATIONSHIP('None',
'relationship between TC__110204R-None and TC__110204R-None',#32,#21);
#21=ADVANCED_BREP_SHAPE_REPRESENTATION('TC__110204R-None',(#38),#288);
#22=SHAPE_DEFINITION_REPRESENTATION(#23,#32);
#23=PRODUCT_DEFINITION_SHAPE('','',#24);
#24=PRODUCT_DEFINITION(' ','',#26,#25);
#25=PRODUCT_DEFINITION_CONTEXT('part definition',#31,'design');
#26=PRODUCT_DEFINITION_FORMATION_WITH_SPECIFIED_SOURCE(' ',' ',#28,
 .NOT_KNOWN.);
#27=PRODUCT_RELATED_PRODUCT_CATEGORY('part','',(#28));
#28=PRODUCT('TC__110204R','TC__110204R',' ',(#29));
#29=PRODUCT_CONTEXT(' ',#31,'mechanical');
#30=APPLICATION_PROTOCOL_DEFINITION('international standard',
'automotive_design',2010,#31);
#31=APPLICATION_CONTEXT(
'core data for automotive mechanical design processes');
#32=SHAPE_REPRESENTATION('TC__110204R-None',(#183),#288);
#33=SURFACE_STYLE_USAGE(.BOTH.,#34);
#34=SURFACE_SIDE_STYLE('',(#35));
#35=SURFACE_STYLE_FILL_AREA(#36);
#36=FILL_AREA_STYLE('',(#37));
#37=FILL_AREA_STYLE_COLOUR('',#180);
#38=MANIFOLD_SOLID_BREP('CUT',#39);
#39=CLOSED_SHELL('',(#49,#50,#51,#52,#53,#54,#55,#56));
#40=CONICAL_SURFACE('',#189,0.399999999999999,6.99999999999999);
#41=CONICAL_SURFACE('',#193,0.400000000000001,6.99999999999999);
#42=CONICAL_SURFACE('',#197,0.399999999999999,6.99999999999999);
#43=CIRCLE('',#187,0.399999999999999);
#44=CIRCLE('',#188,0.107772745051086);
#45=CIRCLE('',#191,0.400000000000001);
#46=CIRCLE('',#192,0.107772745051088);
#47=CIRCLE('',#195,0.399999999999999);
#48=CIRCLE('',#196,0.107772745051087);
#49=ADVANCED_FACE('',(#62),#57,.T.);
#50=ADVANCED_FACE('',(#63),#40,.T.);
#51=ADVANCED_FACE('',(#64),#58,.T.);
#52=ADVANCED_FACE('',(#65),#41,.T.);
#53=ADVANCED_FACE('',(#66),#59,.T.);
#54=ADVANCED_FACE('',(#67),#42,.T.);
#55=ADVANCED_FACE('',(#68),#60,.T.);
#56=ADVANCED_FACE('',(#69),#61,.F.);
#57=PLANE('',#186);
#58=PLANE('',#190);
#59=PLANE('',#194);
#60=PLANE('',#198);
#61=PLANE('',#199);
#62=FACE_OUTER_BOUND('',#70,.T.);
#63=FACE_OUTER_BOUND('',#71,.T.);
#64=FACE_OUTER_BOUND('',#72,.T.);
#65=FACE_OUTER_BOUND('',#73,.T.);
#66=FACE_OUTER_BOUND('',#74,.T.);
#67=FACE_OUTER_BOUND('',#75,.T.);
#68=FACE_OUTER_BOUND('',#76,.T.);
#69=FACE_OUTER_BOUND('',#77,.T.);
#70=EDGE_LOOP('',(#78,#79,#80,#81));
#71=EDGE_LOOP('',(#82,#83,#84,#85));
#72=EDGE_LOOP('',(#86,#87,#88,#89));
#73=EDGE_LOOP('',(#90,#91,#92,#93));
#74=EDGE_LOOP('',(#94,#95,#96,#97));
#75=EDGE_LOOP('',(#98,#99,#100,#101));
#76=EDGE_LOOP('',(#102,#103,#104,#105,#106,#107));
#77=EDGE_LOOP('',(#108,#109,#110,#111,#112,#113));
#78=ORIENTED_EDGE('',*,*,#126,.T.);
#79=ORIENTED_EDGE('',*,*,#127,.F.);
#80=ORIENTED_EDGE('',*,*,#128,.F.);
#81=ORIENTED_EDGE('',*,*,#129,.T.);
#82=ORIENTED_EDGE('',*,*,#130,.T.);
#83=ORIENTED_EDGE('',*,*,#131,.F.);
#84=ORIENTED_EDGE('',*,*,#132,.F.);
#85=ORIENTED_EDGE('',*,*,#127,.T.);
#86=ORIENTED_EDGE('',*,*,#133,.T.);
#87=ORIENTED_EDGE('',*,*,#134,.F.);
#88=ORIENTED_EDGE('',*,*,#135,.F.);
#89=ORIENTED_EDGE('',*,*,#131,.T.);
#90=ORIENTED_EDGE('',*,*,#136,.T.);
#91=ORIENTED_EDGE('',*,*,#137,.F.);
#92=ORIENTED_EDGE('',*,*,#138,.F.);
#93=ORIENTED_EDGE('',*,*,#134,.T.);
#94=ORIENTED_EDGE('',*,*,#139,.T.);
#95=ORIENTED_EDGE('',*,*,#140,.F.);
#96=ORIENTED_EDGE('',*,*,#141,.F.);
#97=ORIENTED_EDGE('',*,*,#137,.T.);
#98=ORIENTED_EDGE('',*,*,#142,.T.);
#99=ORIENTED_EDGE('',*,*,#129,.F.);
#100=ORIENTED_EDGE('',*,*,#143,.F.);
#101=ORIENTED_EDGE('',*,*,#140,.T.);
#102=ORIENTED_EDGE('',*,*,#128,.T.);
#103=ORIENTED_EDGE('',*,*,#132,.T.);
#104=ORIENTED_EDGE('',*,*,#135,.T.);
#105=ORIENTED_EDGE('',*,*,#138,.T.);
#106=ORIENTED_EDGE('',*,*,#141,.T.);
#107=ORIENTED_EDGE('',*,*,#143,.T.);
#108=ORIENTED_EDGE('',*,*,#126,.F.);
#109=ORIENTED_EDGE('',*,*,#142,.F.);
#110=ORIENTED_EDGE('',*,*,#139,.F.);
#111=ORIENTED_EDGE('',*,*,#136,.F.);
#112=ORIENTED_EDGE('',*,*,#133,.F.);
#113=ORIENTED_EDGE('',*,*,#130,.F.);
#114=VERTEX_POINT('',#250);
#115=VERTEX_POINT('',#251);
#116=VERTEX_POINT('',#253);
#117=VERTEX_POINT('',#255);
#118=VERTEX_POINT('',#259);
#119=VERTEX_POINT('',#261);
#120=VERTEX_POINT('',#265);
#121=VERTEX_POINT('',#267);
#122=VERTEX_POINT('',#271);
#123=VERTEX_POINT('',#273);
#124=VERTEX_POINT('',#277);
#125=VERTEX_POINT('',#279);
#126=EDGE_CURVE('',#114,#115,#144,.T.);
#127=EDGE_CURVE('',#116,#115,#145,.T.);
#128=EDGE_CURVE('',#117,#116,#146,.T.);
#129=EDGE_CURVE('',#117,#114,#147,.T.);
#130=EDGE_CURVE('',#115,#118,#43,.T.);
#131=EDGE_CURVE('',#119,#118,#148,.T.);
#132=EDGE_CURVE('',#116,#119,#44,.T.);
#133=EDGE_CURVE('',#118,#120,#149,.T.);
#134=EDGE_CURVE('',#121,#120,#150,.T.);
#135=EDGE_CURVE('',#119,#121,#151,.T.);
#136=EDGE_CURVE('',#120,#122,#45,.T.);
#137=EDGE_CURVE('',#123,#122,#152,.T.);
#138=EDGE_CURVE('',#121,#123,#46,.T.);
#139=EDGE_CURVE('',#122,#124,#153,.T.);
#140=EDGE_CURVE('',#125,#124,#154,.T.);
#141=EDGE_CURVE('',#123,#125,#155,.T.);
#142=EDGE_CURVE('',#124,#114,#47,.T.);
#143=EDGE_CURVE('',#125,#117,#48,.T.);
#144=LINE('',#249,#156);
#145=LINE('',#252,#157);
#146=LINE('',#254,#158);
#147=LINE('',#256,#159);
#148=LINE('',#260,#160);
#149=LINE('',#264,#161);
#150=LINE('',#266,#162);
#151=LINE('',#268,#163);
#152=LINE('',#272,#164);
#153=LINE('',#276,#165);
#154=LINE('',#278,#166);
#155=LINE('',#280,#167);
#156=VECTOR('',#206,1.);
#157=VECTOR('',#207,1.);
#158=VECTOR('',#208,1.);
#159=VECTOR('',#209,1.);
#160=VECTOR('',#214,1.);
#161=VECTOR('',#219,1.);
#162=VECTOR('',#220,1.);
#163=VECTOR('',#221,1.);
#164=VECTOR('',#226,1.);
#165=VECTOR('',#231,1.);
#166=VECTOR('',#232,1.);
#167=VECTOR('',#233,1.);
#168=PRESENTATION_LAYER_ASSIGNMENT('61','Layer 61',(#184));
#169=PRESENTATION_LAYER_ASSIGNMENT('1','Layer 1',(#185));
#170=PRESENTATION_LAYER_ASSIGNMENT('3','Layer 3',(#38));
#171=STYLED_ITEM('',(#174),#184);
#172=STYLED_ITEM('',(#175),#185);
#173=STYLED_ITEM('',(#176),#38);
#174=PRESENTATION_STYLE_ASSIGNMENT((#177));
#175=PRESENTATION_STYLE_ASSIGNMENT((#178));
#176=PRESENTATION_STYLE_ASSIGNMENT((#33));
#177=CURVE_STYLE('',#181,POSITIVE_LENGTH_MEASURE(0.18),#179);
#178=CURVE_STYLE('',#182,POSITIVE_LENGTH_MEASURE(0.18),#179);
#179=COLOUR_RGB('Medium Maroon',0.6,0.4,0.4);
#180=COLOUR_RGB('Light Gray',0.8,0.8,0.8);
#181=DRAUGHTING_PRE_DEFINED_CURVE_FONT('continuous');
#182=DRAUGHTING_PRE_DEFINED_CURVE_FONT('continuous');
#183=AXIS2_PLACEMENT_3D('',#246,#200,#201);
#184=AXIS2_PLACEMENT_3D('MCS',#247,#202,#203);
#185=AXIS2_PLACEMENT_3D('PCS',#248,#204,#205);
#186=AXIS2_PLACEMENT_3D('',#257,#210,#211);
#187=AXIS2_PLACEMENT_3D('',#258,#212,#213);
#188=AXIS2_PLACEMENT_3D('',#262,#215,#216);
#189=AXIS2_PLACEMENT_3D('',#263,#217,#218);
#190=AXIS2_PLACEMENT_3D('',#269,#222,#223);
#191=AXIS2_PLACEMENT_3D('',#270,#224,#225);
#192=AXIS2_PLACEMENT_3D('',#274,#227,#228);
#193=AXIS2_PLACEMENT_3D('',#275,#229,#230);
#194=AXIS2_PLACEMENT_3D('',#281,#234,#235);
#195=AXIS2_PLACEMENT_3D('',#282,#236,#237);
#196=AXIS2_PLACEMENT_3D('',#283,#238,#239);
#197=AXIS2_PLACEMENT_3D('',#284,#240,#241);
#198=AXIS2_PLACEMENT_3D('',#285,#242,#243);
#199=AXIS2_PLACEMENT_3D('',#286,#244,#245);
#200=DIRECTION('',(0.,0.,1.));
#201=DIRECTION('',(1.,0.,0.));
#202=DIRECTION('',(0.,0.,1.));
#203=DIRECTION('',(1.,0.,0.));
#204=DIRECTION('',(0.,0.,1.));
#205=DIRECTION('',(1.,0.,0.));
#206=DIRECTION('',(-1.,0.,0.));
#207=DIRECTION('',(0.,-0.121869343405147,0.992546151641322));
#208=DIRECTION('',(-1.,0.,0.));
#209=DIRECTION('',(0.,-0.121869343405147,0.992546151641322));
#210=DIRECTION('',(0.,-0.992546151641322,-0.121869343405147));
#211=DIRECTION('',(0.,0.121869343405147,-0.992546151641322));
#212=DIRECTION('',(0.,0.,-1.));
#213=DIRECTION('',(1.,0.,0.));
#214=DIRECTION('',(-0.105541947331387,0.0609346717025737,0.992546151641322));
#215=DIRECTION('',(0.,0.,-1.));
#216=DIRECTION('',(-1.,0.,0.));
#217=DIRECTION('',(0.,0.,1.));
#218=DIRECTION('',(1.,1.2322023396066E-16,0.));
#219=DIRECTION('',(0.5,0.866025403784438,0.));
#220=DIRECTION('',(-0.105541947331387,0.0609346717025732,0.992546151641322));
#221=DIRECTION('',(0.5,0.866025403784438,0.));
#222=DIRECTION('',(-0.859570181749866,0.496273075820661,-0.121869343405147));
#223=DIRECTION('',(-0.5,-0.866025403784438,0.));
#224=DIRECTION('',(0.,0.,-1.));
#225=DIRECTION('',(1.,0.,0.));
#226=DIRECTION('',(0.105541947331387,0.0609346717025737,0.992546151641322));
#227=DIRECTION('',(0.,0.,-1.));
#228=DIRECTION('',(-1.,0.,0.));
#229=DIRECTION('',(0.,0.,1.));
#230=DIRECTION('',(1.,1.19699655847498E-16,0.));
#231=DIRECTION('',(0.5,-0.866025403784439,0.));
#232=DIRECTION('',(0.105541947331387,0.0609346717025738,0.992546151641322));
#233=DIRECTION('',(0.5,-0.866025403784439,0.));
#234=DIRECTION('',(0.859570181749867,0.496273075820661,-0.121869343405147));
#235=DIRECTION('',(-0.5,0.866025403784439,0.));
#236=DIRECTION('',(0.,0.,-1.));
#237=DIRECTION('',(1.,0.,0.));
#238=DIRECTION('',(0.,0.,-1.));
#239=DIRECTION('',(-0.999999999999998,0.,0.));
#240=DIRECTION('',(0.,0.,1.));
#241=DIRECTION('',(1.,1.2322023396066E-16,0.));
#242=DIRECTION('',(0.,0.,-1.));
#243=DIRECTION('',(-1.,0.,0.));
#244=DIRECTION('',(0.,0.,-1.));
#245=DIRECTION('',(-1.,0.,0.));
#246=CARTESIAN_POINT('',(0.,0.,0.));
#247=CARTESIAN_POINT('',(0.,0.,0.));
#248=CARTESIAN_POINT('',(-5.49926131403119,-3.175,0.));
#249=CARTESIAN_POINT('',(4.80644099100363,-3.175,0.));
#250=CARTESIAN_POINT('',(4.80644099100363,-3.175,0.));
#251=CARTESIAN_POINT('',(-4.80644099100364,-3.175,0.));
#252=CARTESIAN_POINT('',(-4.80644099100364,-3.175,3.27865305976214E-17));
#253=CARTESIAN_POINT('',(-4.80644099100364,-2.88277274505109,-2.38));
#254=CARTESIAN_POINT('',(4.80644099100363,-2.88277274505109,-2.38));
#255=CARTESIAN_POINT('',(4.80644099100363,-2.88277274505109,-2.38));
#256=CARTESIAN_POINT('',(4.80644099100363,-3.175,0.));
#257=CARTESIAN_POINT('',(4.80644099100363,-3.175,0.));
#258=CARTESIAN_POINT('',(-4.80644099100364,-2.775,0.));
#259=CARTESIAN_POINT('',(-5.15285115251741,-2.575,0.));
#260=CARTESIAN_POINT('',(-5.15285115251741,-2.575,0.));
#261=CARTESIAN_POINT('',(-4.89977492605346,-2.72111362747446,-2.38));
#262=CARTESIAN_POINT('',(-4.80644099100364,-2.775,-2.38));
#263=CARTESIAN_POINT('',(-4.80644099100364,-2.775,0.));
#264=CARTESIAN_POINT('',(-5.15285115251741,-2.575,0.));
#265=CARTESIAN_POINT('',(-0.346410161513775,5.75,0.));
#266=CARTESIAN_POINT('',(-0.346410161513776,5.75,-2.09833795824777E-16));
#267=CARTESIAN_POINT('',(-0.0933339350498253,5.60388637252554,-2.38));
#268=CARTESIAN_POINT('',(-4.89977492605346,-2.72111362747446,-2.38));
#269=CARTESIAN_POINT('',(-5.15285115251741,-2.575,0.));
#270=CARTESIAN_POINT('',(8.88178419700125E-16,5.55,0.));
#271=CARTESIAN_POINT('',(0.346410161513777,5.75,0.));
#272=CARTESIAN_POINT('',(0.346410161513777,5.75,1.68676965978077E-17));
#273=CARTESIAN_POINT('',(0.0933339350498269,5.60388637252554,-2.38));
#274=CARTESIAN_POINT('',(8.88178419700125E-16,5.55,-2.38));
#275=CARTESIAN_POINT('',(8.88178419700125E-16,5.55,0.));
#276=CARTESIAN_POINT('',(0.346410161513777,5.75,0.));
#277=CARTESIAN_POINT('',(5.15285115251741,-2.575,0.));
#278=CARTESIAN_POINT('',(5.15285115251741,-2.575,-1.31146122390485E-17));
#279=CARTESIAN_POINT('',(4.89977492605346,-2.72111362747446,-2.38));
#280=CARTESIAN_POINT('',(0.0933339350498269,5.60388637252554,-2.38));
#281=CARTESIAN_POINT('',(0.346410161513777,5.75,0.));
#282=CARTESIAN_POINT('',(4.80644099100363,-2.775,0.));
#283=CARTESIAN_POINT('',(4.80644099100363,-2.775,-2.38));
#284=CARTESIAN_POINT('',(4.80644099100363,-2.775,0.));
#285=CARTESIAN_POINT('',(-4.80644099100364,-2.775,-2.38));
#286=CARTESIAN_POINT('',(-4.80644099100364,-2.775,0.));
#287=MECHANICAL_DESIGN_GEOMETRIC_PRESENTATION_REPRESENTATION('',(#171,#172,
#173),#288);
#288=(
GEOMETRIC_REPRESENTATION_CONTEXT(3)
GLOBAL_UNCERTAINTY_ASSIGNED_CONTEXT((#289))
GLOBAL_UNIT_ASSIGNED_CONTEXT((#295,#291,#290))
REPRESENTATION_CONTEXT('TC__110204R','TOP_LEVEL_ASSEMBLY_PART')
);
#289=UNCERTAINTY_MEASURE_WITH_UNIT(LENGTH_MEASURE(2.E-5),#295,
'DISTANCE_ACCURACY_VALUE','Maximum Tolerance applied to model');
#290=(
NAMED_UNIT(*)
SI_UNIT($,.STERADIAN.)
SOLID_ANGLE_UNIT()
);
#291=(
CONVERSION_BASED_UNIT('DEGREE',#293)
NAMED_UNIT(#292)
PLANE_ANGLE_UNIT()
);
#292=DIMENSIONAL_EXPONENTS(0.,0.,0.,0.,0.,0.,0.);
#293=PLANE_ANGLE_MEASURE_WITH_UNIT(PLANE_ANGLE_MEASURE(0.0174532925),#294);
#294=(
NAMED_UNIT(*)
PLANE_ANGLE_UNIT()
SI_UNIT($,.RADIAN.)
);
#295=(
LENGTH_UNIT()
NAMED_UNIT(*)
SI_UNIT(.MILLI.,.METRE.)
);
ENDSEC;
END-ISO-10303-21;
